Don't click or your IP will be banned


Revival

Revival
by The Allman Brothers Band

Intro
          A       D      A                      A     D     E       A     
E--------------------------------------------------------------------
B--------------------------------------------------------------------
G----------------------------------2--------------------------------
D------------------------2-h-4-------------------------------------
A--------------------------------------------------------------------
E--------------------------------------------------------------------


Riff before verse

E---5-h-7-p-5----------------------------------------------------
B------------------7-p-5------------------------------------------
G---------------------------6-s-4--2--4 p 2------2--2-h-4-----
D-----------------------------------------------4------------------
A-------------------------------------------------------------------
E-------------------------------------------------------------------


E-------------------------------------------------------------------
B---2-h-3-p-2----------------------------------------------------
G-----------------4-p-2-------------------------------------------
D--------------------------4--2-h-4-p-2-------------------------
A---------------------------------------------4--2---0------------
E-------------------------------------------------------------------


Added:  Sunday, March 21, 2004
Submitter:  Brock Lang
Score:
hits: 5516

  

[ Back to tab index ] [ Post comment ]

Posted by makimadni on Jul 20, 2005 - 08:44 PM
My score:

wow glad to see my last post didnt come out right

Posted by makimadni on Jul 20, 2005 - 08:43 PM
My score:

Just my idea of the way the song goes.  Not sure whos right.

Acoustic Intro:

E-------------------------------------------------------------------
B--2--2-2--3---2-2--2-3---2--2-2--3--1-1--1-2-------------
G--2--2-2--2---2-2--2-2---2--2-2--2--0-0--0-2-------------
D--2--2-2--4---2-2--2-4---2--2-2--4--0-0--0-2-------------
A--------------0-0-0--0-0---0--0-0-----------------------------
E-------------------------------------------------------------------

Riff:
Dickey top line, Duane bottom line

E---------------------------------------------------------------------
B--8p5-----5--8-8h10~~------8p5-----5--8--------------------
G--------7-------------------------------7--------5h6~~~---------
D----------------------------------------------------------------------
A----------------------------------------------------------------------
E----------------------------------------------------------------------
|
E----------------------------------------------------------------------
B----------------------------------------------------------------------
G--7p5-----5--7-7h9~~~------7p5-----5--7--------------------
D--------7-------------------------------7--------5h7~~~---------
A----------------------------------------------------------------------
E----------------------------------------------------------------------





Posted by Mt_Magnolia_Man on Aug 15, 2004 - 03:15 PM
My score:

its actully E AA EE, E AA BB E


Privacy | Terms of Service
The ALLMAN BROTHERS BAND name, The ALLMAN BROTHERS name, likenesses, logos, mushroom design and peach truck are all registered trademarks of THE ABB MERCHANDISING CO., INC. whose rights are specifically reserved. Any artwork, visual, or audio representations used on this web site CONTAINING ANY REGISTERED TRADEMARKS are under license from The ABB MERCHANDISING CO., INC. A REVOCABLE, GRATIS LICENSE IS GRANTED TO ALL REGISTERED PEACH CORP MEMBERS FOR The DOWNLOADING OF ONE COPY FOR PERSONAL USE ONLY. ANY DISTRIBUTION OR REPRODUCTION OF THE TRADEMARKS CONTAINED HEREIN ARE PROHIBITED AND ARE SPECIFICALLY RESERVED BY THE ABB MERCHANDISING CO.,INC.
site by Hittin' the Web Group with www.experiencewasabi3d.com